0
SECTION
2
HEADER
9
$INSUNITS
70
4
9
$ACADVER
1
AC1014
9
$HANDSEED
5
FFFF
0
ENDSEC
0
SECTION
2
TABLES
0
TABLE
2
VPORT
5
8
100
AcDbSymbolTable
0
ENDTAB
0
TABLE
2
LTYPE
5
5
100
AcDbSymbolTable
0
LTYPE
5
14
100
AcDbSymbolTableRecord
100
AcDbLinetypeTableRecord
2
BYBLOCK
70
0
0
LTYPE
5
15
100
AcDbSymbolTableRecord
100
AcDbLinetypeTableRecord
2
BYLAYER
70
0
0
ENDTAB
0
TABLE
2
LAYER
5
2
100
AcDbSymbolTable
70
2
0
LAYER
5
50
100
AcDbSymbolTableRecord
100
AcDbLayerTableRecord
2
0
70
0
6
CONTINUOUS
0
ENDTAB
0
TABLE
2
STYLE
5
3
100
AcDbSymbolTable
70
1
0
STYLE
5
11
100
AcDbSymbolTableRecord
100
AcDbTextStyleTableRecord
2
STANDARD
70
0
0
ENDTAB
0
TABLE
2
VIEW
5
6
100
AcDbSymbolTable
70
0
0
ENDTAB
0
TABLE
2
UCS
5
7
100
AcDbSymbolTable
70
0
0
ENDTAB
0
TABLE
2
APPID
5
9
100
AcDbSymbolTable
70
2
0
APPID
5
12
100
AcDbSymbolTableRecord
100
AcDbRegAppTableRecord
2
ACAD
70
0
0
ENDTAB
0
TABLE
2
DIMSTYLE
5
A
100
AcDbSymbolTable
70
1
0
ENDTAB
0
TABLE
2
BLOCK_RECORD
5
1
100
AcDbSymbolTable
70
1
0
BLOCK_RECORD
5
1F
100
AcDbSymbolTableRecord
100
AcDbBlockTableRecord
2
*MODEL_SPACE
0
BLOCK_RECORD
5
1B
100
AcDbSymbolTableRecord
100
AcDbBlockTableRecord
2
*PAPER_SPACE
0
ENDTAB
0
ENDSEC
0
SECTION
2
BLOCKS
0
BLOCK
5
20
100
AcDbEntity
100
AcDbBlockBegin
2
*MODEL_SPACE
0
ENDBLK
5
21
100
AcDbEntity
100
AcDbBlockEnd
0
BLOCK
5
1C
100
AcDbEntity
100
AcDbBlockBegin
2
*PAPER_SPACE
0
ENDBLK
5
1D
100
AcDbEntity
100
AcDbBlockEnd
0
ENDSEC
0
SECTION
2
ENTITIES
0
ARC
5
100
100
AcDbEntity
8
0
100
AcDbCircle
10
287.849999999999
20
189.50000000000017
30
0
40
2.0000000000000639
210
0
220
-0
230
1
100
AcDbArc
50
0
51
89.99999999999838
0
ARC
5
101
100
AcDbEntity
8
0
100
AcDbCircle
10
287.84999999999906
20
6.1000000000000085
30
0
40
1.999999999999994
210
0
220
0
230
1
100
AcDbArc
50
-90
51
0
0
ARC
5
102
100
AcDbEntity
8
0
100
AcDbCircle
10
11.850000000000023
20
6.1000000000000316
30
0
40
1.9999999999999962
210
0
220
0
230
1
100
AcDbArc
50
180
51
270
0
LINE
5
103
100
AcDbEntity
8
0
100
AcDbLine
10
9.8500000000000263
20
189.50000000000023
30
0
11
9.8500000000000263
21
6.1000000000000298
31
0
0
ARC
5
104
100
AcDbEntity
8
0
100
AcDbCircle
10
11.850000000000016
20
189.50000000000023
30
0
40
1.9999999999999929
210
0
220
-0
230
1
100
AcDbArc
50
89.999999999999801
51
180
0
LINE
5
105
100
AcDbEntity
8
0
100
AcDbLine
10
287.84999999999906
20
191.50000000000023
30
0
11
11.850000000000023
21
191.50000000000023
31
0
0
LINE
5
106
100
AcDbEntity
8
0
100
AcDbLine
10
-1.6653345369377348e-15
20
191.60000000000002
30
0
11
0
21
3.9999999999999858
31
0
0
ARC
5
107
100
AcDbEntity
8
0
100
AcDbCircle
10
3.9999999999999902
20
191.60000000000002
30
0
40
3.9999999999999858
210
0
220
-0
230
1
100
AcDbArc
50
89.999999999999872
51
180
0
LINE
5
108
100
AcDbEntity
8
0
100
AcDbLine
10
295.69999999999999
20
195.60000000000002
30
0
11
3.9999999999999858
21
195.60000000000002
31
0
0
ARC
5
109
100
AcDbEntity
8
0
100
AcDbCircle
10
295.70000000000005
20
191.60000000000008
30
0
40
3.9999999999999503
210
0
220
0
230
1
100
AcDbArc
50
0
51
90.00000000000081
0
LINE
5
110
100
AcDbEntity
8
0
100
AcDbLine
10
299.69999999999999
20
191.60000000000002
30
0
11
299.69999999999999
21
3.9999999999999858
31
0
0
ARC
5
111
100
AcDbEntity
8
0
100
AcDbCircle
10
295.70000000000005
20
3.9999999999999849
30
0
40
3.9999999999999671
210
0
220
0
230
1
100
AcDbArc
50
-90.00000000000081
51
0
0
LINE
5
112
100
AcDbEntity
8
0
100
AcDbLine
10
295.69999999999999
20
1.7763568394002505e-14
30
0
11
3.9999999999999858
21
-2.5830503167325249e-14
31
0
0
ARC
5
113
100
AcDbEntity
8
0
100
AcDbCircle
10
4
20
4.0000000000000036
30
0
40
4
210
0
220
0
230
1
100
AcDbArc
50
180
51
269.99999999999983
0
ARC
5
114
100
AcDbEntity
8
0
100
AcDbCircle
10
280.94999999999999
20
83.800000000000011
30
0
40
13.200000000000003
210
-0
220
0
230
1
100
AcDbArc
50
-44.184000144737411
51
44.184000144737347
0
ARC
5
115
100
AcDbEntity
8
0
100
AcDbCircle
10
291.84999999999906
20
94.393866149806698
30
0
40
1.9999999999999929
210
0
220
0
230
1
100
AcDbArc
50
180
51
224.18400014473718
0
ARC
5
116
100
AcDbEntity
8
0
100
AcDbCircle
10
291.84999999999906
20
73.206133850193311
30
0
40
1.9999999999999925
210
0
220
0
230
1
100
AcDbArc
50
135.81599985526285
51
180
0
LINE
5
117
100
AcDbEntity
8
0
100
AcDbLine
10
289.84999999999906
20
94.393866149806698
30
0
11
289.84999999999906
21
189.50000000000023
31
0
0
LINE
5
118
100
AcDbEntity
8
0
100
AcDbLine
10
289.84999999999906
20
6.1000000000000298
30
0
11
289.84999999999906
21
73.206133850193311
31
0
0
LINE
5
119
100
AcDbEntity
8
0
100
AcDbLine
10
11.850000000000023
20
4.1000000000000325
30
0
11
287.84999999999906
21
4.1000000000000147
31
0
0
CIRCLE
5
120
100
AcDbEntity
8
0
100
AcDbCircle
10
293.31
20
11.190000000000033
30
0
40
1.9999999999999929
210
0
220
-0
230
1
0
CIRCLE
5
121
100
AcDbEntity
8
0
100
AcDbCircle
10
293.31
20
184.41000000000003
30
0
40
1.9999999999999929
210
0
220
-0
230
1
0
CIRCLE
5
122
100
AcDbEntity
8
0
100
AcDbCircle
10
6.3900000000000006
20
184.41000000000003
30
0
40
1.9999999999999996
210
0
220
-0
230
1
0
CIRCLE
5
123
100
AcDbEntity
8
0
100
AcDbCircle
10
6.3900000000000006
20
11.190000000000033
30
0
40
1.9999999999999996
210
0
220
-0
230
1
0
ENDSEC
0
SECTION
2
OBJECTS
0
DICTIONARY
5
C
100
AcDbDictionary
3
ACAD_GROUP
350
D
3
ACAD_MLINESTYLE
350
17
0
DICTIONARY
5
D
100
AcDbDictionary
0
DICTIONARY
5
1A
330
C
100
AcDbDictionary
0
DICTIONARY
5
17
100
AcDbDictionary
0
ENDSEC
0
EOF
